ISO-10303-21;
HEADER;
FILE_DESCRIPTION (( 'STEP AP203' ),
    '1' );
FILE_NAME ('Q-OZHWP-R2-12.7-894-M.STEP',
    '2020-12-22T09:15:08',
    ( '' ),
    ( '' ),
    'SwSTEP 2.0',
    'SolidWorks 2020',
    '' );
FILE_SCHEMA (( 'CONFIG_CONTROL_DESIGN' ));
ENDSEC;

DATA;
#1 = ADVANCED_FACE ( 'NONE', ( #38 ), #230, .F. ) ;
#2 =( NAMED_UNIT ( * ) SI_UNIT ( $, .STERADIAN. ) SOLID_ANGLE_UNIT ( ) );
#3 = DIRECTION ( 'NONE',  ( 1.000000000000000000, 0.000000000000000000, 0.000000000000000000 ) ) ;
#4 = VECTOR ( 'NONE', #133, 1000.000000000000000 ) ;
#5 = ORIENTED_EDGE ( 'NONE', *, *, #276, .F. ) ;
#6 = DESIGN_CONTEXT ( 'detailed design', #239, 'design' ) ;
#7 = AXIS2_PLACEMENT_3D ( 'NONE', #10, #215, #322 ) ;
#8 = ORIENTED_EDGE ( 'NONE', *, *, #225, .F. ) ;
#9 = ORIENTED_EDGE ( 'NONE', *, *, #175, .T. ) ;
#10 = CARTESIAN_POINT ( 'NONE',  ( -1.614212418857619014, 0.000000000000000000, 0.000000000000000000 ) ) ;
#11 = AXIS2_PLACEMENT_3D ( 'NONE', #135, #256, #58 ) ;
#12 = EDGE_LOOP ( 'NONE', ( #109, #214 ) ) ;
#13 = CYLINDRICAL_SURFACE ( 'NONE', #19, 12.69999999999999929 ) ;
#14 = CARTESIAN_POINT ( 'NONE',  ( -2.999999999999999556, 0.000000000000000000, 0.000000000000000000 ) ) ;
#15 = PRODUCT_DEFINITION_SHAPE ( 'NONE', 'NONE',  #333 ) ;
#16 = AXIS2_PLACEMENT_3D ( 'NONE', #285, #308, #305 ) ;
#17 = FACE_OUTER_BOUND ( 'NONE', #182, .T. ) ;
#18 = VERTEX_POINT ( 'NONE', #93 ) ;
#19 = AXIS2_PLACEMENT_3D ( 'NONE', #89, #323, #318 ) ;
#20 = DATE_AND_TIME ( #267, #31 ) ;
#21 = CC_DESIGN_DATE_AND_TIME_ASSIGNMENT ( #20, #275, ( #333 ) ) ;
#22 = DIRECTION ( 'NONE',  ( 0.000000000000000000, 0.000000000000000000, -1.000000000000000000 ) ) ;
#23 = PERSON_AND_ORGANIZATION ( #309, #41 ) ;
#24 = AXIS2_PLACEMENT_3D ( 'NONE', #241, #122, #301 ) ;
#25 = DIRECTION ( 'NONE',  ( -1.000000000000000000, -0.000000000000000000, -0.000000000000000000 ) ) ;
#26 = PERSON_AND_ORGANIZATION_ROLE ( 'classification_officer' ) ;
#27 = CARTESIAN_POINT ( 'NONE',  ( 0.000000000000000000, 0.000000000000000000, 0.000000000000000000 ) ) ;
#28 = CARTESIAN_POINT ( 'NONE',  ( -2.999999999999999556, 7.776507174585692163E-16, -6.349999999999999645 ) ) ;
#29 = ORIENTED_EDGE ( 'NONE', *, *, #166, .T. ) ;
#30 =( LENGTH_UNIT ( ) NAMED_UNIT ( * ) SI_UNIT ( .MILLI., .METRE. ) );
#31 = LOCAL_TIME ( 17, 15, 8.000000000000000000, #82 ) ;
#32 =( NAMED_UNIT ( * ) PLANE_ANGLE_UNIT ( ) SI_UNIT ( $, .RADIAN. ) );
#33 = APPROVAL_DATE_TIME ( #86, #240 ) ;
#34 = ORIENTED_EDGE ( 'NONE', *, *, #180, .F. ) ;
#35 = FACE_OUTER_BOUND ( 'NONE', #296, .T. ) ;
#36 = AXIS2_PLACEMENT_3D ( 'NONE', #81, #100, #150 ) ;
#37 = CC_DESIGN_PERSON_AND_ORGANIZATION_ASSIGNMENT ( #23, #26, ( #116 ) ) ;
#38 = FACE_OUTER_BOUND ( 'NONE', #290, .T. ) ;
#39 = ORIENTED_EDGE ( 'NONE', *, *, #180, .T. ) ;
#40 = DIRECTION ( 'NONE',  ( -1.000000000000000000, -0.000000000000000000, -0.000000000000000000 ) ) ;
#41 = ORGANIZATION ( 'UNSPECIFIED', 'UNSPECIFIED', '' ) ;
#42 = CARTESIAN_POINT ( 'NONE',  ( -1.614212418857619014, 0.000000000000000000, 0.000000000000000000 ) ) ;
#43 = ORIENTED_EDGE ( 'NONE', *, *, #143, .F. ) ;
#44 = LINE ( 'NONE', #216, #218 ) ;
#45 = DIRECTION ( 'NONE',  ( -1.000000000000000000, -0.000000000000000000, -0.000000000000000000 ) ) ;
#46 = PERSON_AND_ORGANIZATION_ROLE ( 'design_supplier' ) ;
#47 = DIRECTION ( 'NONE',  ( 0.000000000000000000, 0.000000000000000000, 1.000000000000000000 ) ) ;
#48 = COORDINATED_UNIVERSAL_TIME_OFFSET ( 8, 0, .AHEAD. ) ;
#49 = EDGE_CURVE ( 'NONE', #124, #261, #222, .T. ) ;
#50 = CARTESIAN_POINT ( 'NONE',  ( 3.000000000000000000, 0.000000000000000000, 0.000000000000000000 ) ) ;
#51 = APPROVAL_ROLE ( '' ) ;
#52 = PRODUCT ( 'Q-OZHWP-R2-12.7-894-M', 'Q-OZHWP-R2-12.7-894-M', '', ( #219 ) ) ;
#53 = PRODUCT_DEFINITION_FORMATION_WITH_SPECIFIED_SOURCE ( 'ANY', '', #52, .NOT_KNOWN. ) ;
#54 = CARTESIAN_POINT ( 'NONE',  ( -1.614212418857619014, 0.000000000000000000, 6.349999999999999645 ) ) ;
#55 = CALENDAR_DATE ( 2020, 22, 12 ) ;
#56 = CIRCLE ( 'NONE', #177, 6.349999999999999645 ) ;
#57 = DIRECTION ( 'NONE',  ( -0.000000000000000000, 0.000000000000000000, 1.000000000000000000 ) ) ;
#58 = DIRECTION ( 'NONE',  ( 0.000000000000000000, 0.000000000000000000, 1.000000000000000000 ) ) ;
#59 = CC_DESIGN_PERSON_AND_ORGANIZATION_ASSIGNMENT ( #80, #270, ( #53 ) ) ;
#60 = ADVANCED_FACE ( 'NONE', ( #211 ), #13, .T. ) ;
#61 = ORIENTED_EDGE ( 'NONE', *, *, #232, .T. ) ;
#62 = CARTESIAN_POINT ( 'NONE',  ( 3.000000000000000888, 0.000000000000000000, 6.349999999999999645 ) ) ;
#63 = ADVANCED_FACE ( 'NONE', ( #65, #69 ), #231, .F. ) ;
#64 = EDGE_LOOP ( 'NONE', ( #288, #141 ) ) ;
#65 = FACE_OUTER_BOUND ( 'NONE', #184, .T. ) ;
#66 = DIRECTION ( 'NONE',  ( -1.000000000000000000, -0.000000000000000000, -0.000000000000000000 ) ) ;
#67 = CIRCLE ( 'NONE', #311, 6.349999999999999645 ) ;
#68 = ORIENTED_EDGE ( 'NONE', *, *, #97, .F. ) ;
#69 = FACE_BOUND ( 'NONE', #235, .T. ) ;
#70 = VECTOR ( 'NONE', #223, 1000.000000000000000 ) ;
#71 = CARTESIAN_POINT ( 'NONE',  ( -1.614212418857619014, 0.000000000000000000, 0.000000000000000000 ) ) ;
#72 = COORDINATED_UNIVERSAL_TIME_OFFSET ( 8, 0, .AHEAD. ) ;
#73 = ORIENTED_EDGE ( 'NONE', *, *, #128, .T. ) ;
#74 = PRODUCT_RELATED_PRODUCT_CATEGORY ( 'detail', '', ( #52 ) ) ;
#75 = CARTESIAN_POINT ( 'NONE',  ( 1.500000000000000888, 0.000000000000000000, 0.000000000000000000 ) ) ;
#76 = APPROVAL_STATUS ( 'not_yet_approved' ) ;
#77 = CIRCLE ( 'NONE', #328, 6.349999999999999645 ) ;
#78 = ADVANCED_FACE ( 'NONE', ( #119 ), #289, .F. ) ;
#79 = DIRECTION ( 'NONE',  ( -1.000000000000000000, -0.000000000000000000, -0.000000000000000000 ) ) ;
#80 = PERSON_AND_ORGANIZATION ( #309, #41 ) ;
#81 = CARTESIAN_POINT ( 'NONE',  ( -2.999999999999999556, 0.000000000000000000, 0.000000000000000000 ) ) ;
#82 = COORDINATED_UNIVERSAL_TIME_OFFSET ( 8, 0, .AHEAD. ) ;
#83 = VERTEX_POINT ( 'NONE', #188 ) ;
#84 = AXIS2_PLACEMENT_3D ( 'NONE', #42, #266, #47 ) ;
#85 = CARTESIAN_POINT ( 'NONE',  ( -1.500000000000000444, 6.349999999999999645, 0.000000000000000000 ) ) ;
#86 = DATE_AND_TIME ( #104, #298 ) ;
#87 = LINE ( 'NONE', #255, #4 ) ;
#88 = VERTEX_POINT ( 'NONE', #287 ) ;
#89 = CARTESIAN_POINT ( 'NONE',  ( -1.614212418857619014, 0.000000000000000000, 0.000000000000000000 ) ) ;
#90 = CARTESIAN_POINT ( 'NONE',  ( 3.000000000000000888, 0.000000000000000000, 0.000000000000000000 ) ) ;
#91 = DIRECTION ( 'NONE',  ( -0.000000000000000000, 0.000000000000000000, 1.000000000000000000 ) ) ;
#92 = ORIENTED_EDGE ( 'NONE', *, *, #199, .F. ) ;
#93 = CARTESIAN_POINT ( 'NONE',  ( 3.000000000000000000, 1.555301434917138433E-15, -12.69999999999999929 ) ) ;
#94 = EDGE_CURVE ( 'NONE', #320, #187, #245, .T. ) ;
#95 = PERSON_AND_ORGANIZATION_ROLE ( 'creator' ) ;
#96 = CC_DESIGN_SECURITY_CLASSIFICATION ( #116, ( #53 ) ) ;
#97 = EDGE_CURVE ( 'NONE', #118, #262, #56, .T. ) ;
#98 = DIRECTION ( 'NONE',  ( -1.000000000000000000, -0.000000000000000000, -0.000000000000000000 ) ) ;
#99 = DATE_AND_TIME ( #127, #228 ) ;
#100 = DIRECTION ( 'NONE',  ( -1.000000000000000000, -0.000000000000000000, -0.000000000000000000 ) ) ;
#101 = APPROVAL_STATUS ( 'not_yet_approved' ) ;
#102 = PLANE ( 'NONE',  #206 ) ;
#103 = DIRECTION ( 'NONE',  ( 0.000000000000000000, 0.000000000000000000, 1.000000000000000000 ) ) ;
#104 = CALENDAR_DATE ( 2020, 22, 12 ) ;
#105 = ADVANCED_FACE ( 'NONE', ( #115 ), #264, .T. ) ;
#106 = SHAPE_DEFINITION_REPRESENTATION ( #15, #111 ) ;
#107 =( GEOMETRIC_REPRESENTATION_CONTEXT ( 3 ) GLOBAL_UNCERTAINTY_ASSIGNED_CONTEXT ( ( #326 ) ) GLOBAL_UNIT_ASSIGNED_CONTEXT ( ( #30, #32, #2 ) ) REPRESENTATION_CONTEXT ( 'NONE', 'WORKASPACE' ) );
#108 = MANIFOLD_SOLID_BREP ( 'Ðý×', #325 ) ;
#109 = ORIENTED_EDGE ( 'NONE', *, *, #199, .T. ) ;
#110 = AXIS2_PLACEMENT_3D ( 'NONE', #162, #292, #91 ) ;
#111 = ADVANCED_BREP_SHAPE_REPRESENTATION ( 'Q-OZHWP-R2-12.7-894-M', ( #108, #146 ), #107 ) ;
#112 = ORIENTED_EDGE ( 'NONE', *, *, #220, .T. ) ;
#113 = CARTESIAN_POINT ( 'NONE',  ( 1.500000000000000888, 0.000000000000000000, 0.000000000000000000 ) ) ;
#114 = EDGE_LOOP ( 'NONE', ( #243, #317 ) ) ;
#115 = FACE_OUTER_BOUND ( 'NONE', #327, .T. ) ;
#116 = SECURITY_CLASSIFICATION ( '', '', #299 ) ;
#117 = EDGE_CURVE ( 'NONE', #262, #124, #44, .T. ) ;
#118 = VERTEX_POINT ( 'NONE', #244 ) ;
#119 = FACE_OUTER_BOUND ( 'NONE', #253, .T. ) ;
#120 = DIRECTION ( 'NONE',  ( 0.000000000000000000, 0.000000000000000000, 1.000000000000000000 ) ) ;
#121 = CC_DESIGN_PERSON_AND_ORGANIZATION_ASSIGNMENT ( #278, #198, ( #52 ) ) ;
#122 = DIRECTION ( 'NONE',  ( -1.000000000000000000, -0.000000000000000000, -0.000000000000000000 ) ) ;
#123 = CIRCLE ( 'NONE', #163, 12.69999999999999929 ) ;
#124 = VERTEX_POINT ( 'NONE', #329 ) ;
#125 = VECTOR ( 'NONE', #98, 1000.000000000000000 ) ;
#126 = CARTESIAN_POINT ( 'NONE',  ( -1.500000000000000444, 0.000000000000000000, 0.000000000000000000 ) ) ;
#127 = CALENDAR_DATE ( 2020, 22, 12 ) ;
#128 = EDGE_CURVE ( 'NONE', #18, #227, #194, .T. ) ;
#129 = AXIS2_PLACEMENT_3D ( 'NONE', #217, #25, #130 ) ;
#130 = DIRECTION ( 'NONE',  ( 0.000000000000000000, 0.000000000000000000, 1.000000000000000000 ) ) ;
#131 = DATE_TIME_ROLE ( 'classification_date' ) ;
#132 = CALENDAR_DATE ( 2020, 22, 12 ) ;
#133 = DIRECTION ( 'NONE',  ( -1.000000000000000000, -0.000000000000000000, -0.000000000000000000 ) ) ;
#134 = AXIS2_PLACEMENT_3D ( 'NONE', #179, #282, #57 ) ;
#135 = CARTESIAN_POINT ( 'NONE',  ( -1.614212418857619014, 0.000000000000000000, 0.000000000000000000 ) ) ;
#136 = DIRECTION ( 'NONE',  ( 0.000000000000000000, 0.000000000000000000, -1.000000000000000000 ) ) ;
#137 = ORIENTED_EDGE ( 'NONE', *, *, #166, .F. ) ;
#138 = ORIENTED_EDGE ( 'NONE', *, *, #128, .F. ) ;
#139 = ORIENTED_EDGE ( 'NONE', *, *, #94, .F. ) ;
#140 = DIRECTION ( 'NONE',  ( -1.000000000000000000, -0.000000000000000000, -0.000000000000000000 ) ) ;
#141 = ORIENTED_EDGE ( 'NONE', *, *, #175, .F. ) ;
#142 = ORIENTED_EDGE ( 'NONE', *, *, #257, .F. ) ;
#143 = EDGE_CURVE ( 'NONE', #18, #260, #306, .T. ) ;
#144 = CARTESIAN_POINT ( 'NONE',  ( -1.614212418857619014, 7.776507174585692163E-16, -6.349999999999999645 ) ) ;
#145 = DATE_AND_TIME ( #55, #152 ) ;
#146 = AXIS2_PLACEMENT_3D ( 'NONE', #27, #242, #246 ) ;
#147 = ORIENTED_EDGE ( 'NONE', *, *, #257, .T. ) ;
#148 = CARTESIAN_POINT ( 'NONE',  ( -3.000000000000000000, 1.555301434917138433E-15, -12.69999999999999929 ) ) ;
#149 = CYLINDRICAL_SURFACE ( 'NONE', #129, 6.349999999999999645 ) ;
#150 = DIRECTION ( 'NONE',  ( 0.000000000000000000, 0.000000000000000000, 1.000000000000000000 ) ) ;
#151 = COORDINATED_UNIVERSAL_TIME_OFFSET ( 8, 0, .AHEAD. ) ;
#152 = LOCAL_TIME ( 17, 15, 8.000000000000000000, #72 ) ;
#153 = PERSON_AND_ORGANIZATION ( #309, #41 ) ;
#154 = AXIS2_PLACEMENT_3D ( 'NONE', #14, #161, #120 ) ;
#155 = CARTESIAN_POINT ( 'NONE',  ( 3.000000000000000888, 0.000000000000000000, 0.000000000000000000 ) ) ;
#156 = CC_DESIGN_APPROVAL ( #240, ( #116 ) ) ;
#157 = ORIENTED_EDGE ( 'NONE', *, *, #284, .F. ) ;
#158 = PLANE ( 'NONE',  #134 ) ;
#159 = CIRCLE ( 'NONE', #250, 6.349999999999999645 ) ;
#160 = AXIS2_PLACEMENT_3D ( 'NONE', #50, #79, #170 ) ;
#161 = DIRECTION ( 'NONE',  ( -1.000000000000000000, -0.000000000000000000, -0.000000000000000000 ) ) ;
#162 = CARTESIAN_POINT ( 'NONE',  ( 3.000000000000000000, 12.69999999999999929, 0.000000000000000000 ) ) ;
#163 = AXIS2_PLACEMENT_3D ( 'NONE', #271, #45, #277 ) ;
#164 = DIRECTION ( 'NONE',  ( 0.000000000000000000, 0.000000000000000000, 1.000000000000000000 ) ) ;
#165 = AXIS2_PLACEMENT_3D ( 'NONE', #113, #66, #189 ) ;
#166 = EDGE_CURVE ( 'NONE', #238, #320, #274, .T. ) ;
#167 = DIRECTION ( 'NONE',  ( 0.000000000000000000, 0.000000000000000000, -1.000000000000000000 ) ) ;
#168 = DATE_AND_TIME ( #132, #254 ) ;
#169 = CC_DESIGN_APPROVAL ( #265, ( #333 ) ) ;
#170 = DIRECTION ( 'NONE',  ( 0.000000000000000000, 0.000000000000000000, 1.000000000000000000 ) ) ;
#171 = CARTESIAN_POINT ( 'NONE',  ( -1.614212418857619014, 1.555301434917138433E-15, -12.69999999999999929 ) ) ;
#172 = APPROVAL_STATUS ( 'not_yet_approved' ) ;
#173 = DIRECTION ( 'NONE',  ( 0.000000000000000000, 0.000000000000000000, 1.000000000000000000 ) ) ;
#174 = APPLICATION_PROTOCOL_DEFINITION ( 'international standard', 'config_control_design', 1994, #307 ) ;
#175 = EDGE_CURVE ( 'NONE', #261, #124, #67, .T. ) ;
#176 = LINE ( 'NONE', #310, #70 ) ;
#177 = AXIS2_PLACEMENT_3D ( 'NONE', #90, #140, #164 ) ;
#178 = CARTESIAN_POINT ( 'NONE',  ( -3.000000000000000000, 6.349999999999999645, 0.000000000000000000 ) ) ;
#179 = CARTESIAN_POINT ( 'NONE',  ( 1.500000000000000444, 6.349999999999999645, 0.000000000000000000 ) ) ;
#180 = EDGE_CURVE ( 'NONE', #187, #320, #324, .T. ) ;
#181 = DIRECTION ( 'NONE',  ( 0.000000000000000000, 0.000000000000000000, -1.000000000000000000 ) ) ;
#182 = EDGE_LOOP ( 'NONE', ( #137, #112, #61, #39 ) ) ;
#183 = CC_DESIGN_PERSON_AND_ORGANIZATION_ASSIGNMENT ( #153, #95, ( #333 ) ) ;
#184 = EDGE_LOOP ( 'NONE', ( #8, #43 ) ) ;
#185 = CIRCLE ( 'NONE', #16, 12.69999999999999929 ) ;
#186 = EDGE_LOOP ( 'NONE', ( #34, #139 ) ) ;
#187 = VERTEX_POINT ( 'NONE', #269 ) ;
#188 = CARTESIAN_POINT ( 'NONE',  ( -1.500000000000000444, 0.000000000000000000, 6.349999999999999645 ) ) ;
#189 = DIRECTION ( 'NONE',  ( 0.000000000000000000, 0.000000000000000000, 1.000000000000000000 ) ) ;
#190 = DIRECTION ( 'NONE',  ( -1.000000000000000000, -0.000000000000000000, -0.000000000000000000 ) ) ;
#191 = DIRECTION ( 'NONE',  ( 1.000000000000000000, 0.000000000000000000, 0.000000000000000000 ) ) ;
#192 = APPROVAL_DATE_TIME ( #145, #265 ) ;
#193 = ORIENTED_EDGE ( 'NONE', *, *, #232, .F. ) ;
#194 = LINE ( 'NONE', #171, #125 ) ;
#195 = APPROVAL_ROLE ( '' ) ;
#196 = CC_DESIGN_APPROVAL ( #209, ( #53 ) ) ;
#197 = CARTESIAN_POINT ( 'NONE',  ( -1.500000000000000444, 0.000000000000000000, 0.000000000000000000 ) ) ;
#198 = PERSON_AND_ORGANIZATION_ROLE ( 'design_owner' ) ;
#199 = EDGE_CURVE ( 'NONE', #88, #227, #291, .T. ) ;
#200 = APPROVAL_ROLE ( '' ) ;
#201 = ORIENTED_EDGE ( 'NONE', *, *, #49, .T. ) ;
#202 = DIRECTION ( 'NONE',  ( 1.000000000000000000, 0.000000000000000000, 0.000000000000000000 ) ) ;
#203 = FACE_BOUND ( 'NONE', #186, .T. ) ;
#204 = VECTOR ( 'NONE', #331, 1000.000000000000000 ) ;
#205 = ADVANCED_FACE ( 'NONE', ( #17 ), #149, .F. ) ;
#206 = AXIS2_PLACEMENT_3D ( 'NONE', #85, #3, #136 ) ;
#207 = CARTESIAN_POINT ( 'NONE',  ( 3.000000000000000000, 0.000000000000000000, 12.69999999999999929 ) ) ;
#208 = ORIENTED_EDGE ( 'NONE', *, *, #225, .T. ) ;
#209 = APPROVAL ( #76, 'UNSPECIFIED' ) ;
#210 = ORIENTED_EDGE ( 'NONE', *, *, #229, .T. ) ;
#211 = FACE_OUTER_BOUND ( 'NONE', #237, .T. ) ;
#212 = APPROVAL_PERSON_ORGANIZATION ( #295, #209, #195 ) ;
#213 = DIRECTION ( 'NONE',  ( 0.000000000000000000, 0.000000000000000000, 1.000000000000000000 ) ) ;
#214 = ORIENTED_EDGE ( 'NONE', *, *, #284, .T. ) ;
#215 = DIRECTION ( 'NONE',  ( -1.000000000000000000, -0.000000000000000000, -0.000000000000000000 ) ) ;
#216 = CARTESIAN_POINT ( 'NONE',  ( -1.614212418857619014, 0.000000000000000000, 6.349999999999999645 ) ) ;
#217 = CARTESIAN_POINT ( 'NONE',  ( -1.614212418857619014, 0.000000000000000000, 0.000000000000000000 ) ) ;
#218 = VECTOR ( 'NONE', #190, 1000.000000000000000 ) ;
#219 = MECHANICAL_CONTEXT ( 'NONE', #307, 'mechanical' ) ;
#220 = EDGE_CURVE ( 'NONE', #238, #83, #259, .T. ) ;
#221 = LINE ( 'NONE', #54, #303 ) ;
#222 = CIRCLE ( 'NONE', #165, 6.349999999999999645 ) ;
#223 = DIRECTION ( 'NONE',  ( -1.000000000000000000, -0.000000000000000000, -0.000000000000000000 ) ) ;
#224 = ORIENTED_EDGE ( 'NONE', *, *, #97, .T. ) ;
#225 = EDGE_CURVE ( 'NONE', #260, #18, #123, .T. ) ;
#226 = COORDINATED_UNIVERSAL_TIME_OFFSET ( 8, 0, .AHEAD. ) ;
#227 = VERTEX_POINT ( 'NONE', #148 ) ;
#228 = LOCAL_TIME ( 17, 15, 8.000000000000000000, #48 ) ;
#229 = EDGE_CURVE ( 'NONE', #83, #238, #77, .T. ) ;
#230 = CYLINDRICAL_SURFACE ( 'NONE', #314, 6.349999999999999645 ) ;
#231 = PLANE ( 'NONE',  #110 ) ;
#232 = EDGE_CURVE ( 'NONE', #83, #187, #221, .T. ) ;
#233 = ORIENTED_EDGE ( 'NONE', *, *, #94, .T. ) ;
#234 = APPROVAL_PERSON_ORGANIZATION ( #332, #240, #200 ) ;
#235 = EDGE_LOOP ( 'NONE', ( #268, #224 ) ) ;
#236 = ADVANCED_FACE ( 'NONE', ( #293 ), #102, .F. ) ;
#237 = EDGE_LOOP ( 'NONE', ( #208, #73, #92, #142 ) ) ;
#238 = VERTEX_POINT ( 'NONE', #334 ) ;
#239 = APPLICATION_CONTEXT ( 'configuration controlled 3d designs of mechanical parts and assemblies' ) ;
#240 = APPROVAL ( #101, 'UNSPECIFIED' ) ;
#241 = CARTESIAN_POINT ( 'NONE',  ( -3.000000000000000000, 0.000000000000000000, 0.000000000000000000 ) ) ;
#242 = DIRECTION ( 'NONE',  ( 0.000000000000000000, 0.000000000000000000, 1.000000000000000000 ) ) ;
#243 = ORIENTED_EDGE ( 'NONE', *, *, #229, .F. ) ;
#244 = CARTESIAN_POINT ( 'NONE',  ( 3.000000000000000888, 7.776507174585692163E-16, -6.349999999999999645 ) ) ;
#245 = CIRCLE ( 'NONE', #154, 6.349999999999999645 ) ;
#246 = DIRECTION ( 'NONE',  ( 1.000000000000000000, 0.000000000000000000, 0.000000000000000000 ) ) ;
#247 = DIRECTION ( 'NONE',  ( 1.000000000000000000, 0.000000000000000000, 0.000000000000000000 ) ) ;
#248 = PERSON_AND_ORGANIZATION ( #309, #41 ) ;
#249 = APPROVAL_DATE_TIME ( #168, #209 ) ;
#250 = AXIS2_PLACEMENT_3D ( 'NONE', #155, #302, #103 ) ;
#251 = DIRECTION ( 'NONE',  ( -1.000000000000000000, -0.000000000000000000, -0.000000000000000000 ) ) ;
#252 = CYLINDRICAL_SURFACE ( 'NONE', #11, 6.349999999999999645 ) ;
#253 = EDGE_LOOP ( 'NONE', ( #68, #315, #9, #316 ) ) ;
#254 = LOCAL_TIME ( 17, 15, 8.000000000000000000, #151 ) ;
#255 = CARTESIAN_POINT ( 'NONE',  ( -1.614212418857619014, 7.776507174585692163E-16, -6.349999999999999645 ) ) ;
#256 = DIRECTION ( 'NONE',  ( -1.000000000000000000, -0.000000000000000000, -0.000000000000000000 ) ) ;
#257 = EDGE_CURVE ( 'NONE', #260, #88, #176, .T. ) ;
#258 = ORIENTED_EDGE ( 'NONE', *, *, #117, .T. ) ;
#259 = CIRCLE ( 'NONE', #279, 6.349999999999999645 ) ;
#260 = VERTEX_POINT ( 'NONE', #207 ) ;
#261 = VERTEX_POINT ( 'NONE', #313 ) ;
#262 = VERTEX_POINT ( 'NONE', #62 ) ;
#263 = AXIS2_PLACEMENT_3D ( 'NONE', #178, #202, #181 ) ;
#264 = CYLINDRICAL_SURFACE ( 'NONE', #84, 12.69999999999999929 ) ;
#265 = APPROVAL ( #172, 'UNSPECIFIED' ) ;
#266 = DIRECTION ( 'NONE',  ( -1.000000000000000000, -0.000000000000000000, -0.000000000000000000 ) ) ;
#267 = CALENDAR_DATE ( 2020, 22, 12 ) ;
#268 = ORIENTED_EDGE ( 'NONE', *, *, #276, .T. ) ;
#269 = CARTESIAN_POINT ( 'NONE',  ( -2.999999999999999556, 0.000000000000000000, 6.349999999999999645 ) ) ;
#270 = PERSON_AND_ORGANIZATION_ROLE ( 'creator' ) ;
#271 = CARTESIAN_POINT ( 'NONE',  ( 3.000000000000000000, 0.000000000000000000, 0.000000000000000000 ) ) ;
#272 = ADVANCED_FACE ( 'NONE', ( #203, #335 ), #283, .F. ) ;
#273 = APPLICATION_PROTOCOL_DEFINITION ( 'international standard', 'config_control_design', 1994, #239 ) ;
#274 = LINE ( 'NONE', #144, #204 ) ;
#275 = DATE_TIME_ROLE ( 'creation_date' ) ;
#276 = EDGE_CURVE ( 'NONE', #262, #118, #159, .T. ) ;
#277 = DIRECTION ( 'NONE',  ( 0.000000000000000000, 0.000000000000000000, 1.000000000000000000 ) ) ;
#278 = PERSON_AND_ORGANIZATION ( #309, #41 ) ;
#279 = AXIS2_PLACEMENT_3D ( 'NONE', #197, #191, #167 ) ;
#280 = FACE_OUTER_BOUND ( 'NONE', #64, .T. ) ;
#281 = CC_DESIGN_PERSON_AND_ORGANIZATION_ASSIGNMENT ( #248, #46, ( #53 ) ) ;
#282 = DIRECTION ( 'NONE',  ( -1.000000000000000000, 0.000000000000000000, -0.000000000000000000 ) ) ;
#283 = PLANE ( 'NONE',  #263 ) ;
#284 = EDGE_CURVE ( 'NONE', #227, #88, #185, .T. ) ;
#285 = CARTESIAN_POINT ( 'NONE',  ( -3.000000000000000000, 0.000000000000000000, 0.000000000000000000 ) ) ;
#286 = ORIENTED_EDGE ( 'NONE', *, *, #321, .F. ) ;
#287 = CARTESIAN_POINT ( 'NONE',  ( -3.000000000000000000, 0.000000000000000000, 12.69999999999999929 ) ) ;
#288 = ORIENTED_EDGE ( 'NONE', *, *, #49, .F. ) ;
#289 = CYLINDRICAL_SURFACE ( 'NONE', #7, 6.349999999999999645 ) ;
#290 = EDGE_LOOP ( 'NONE', ( #286, #5, #258, #201 ) ) ;
#291 = CIRCLE ( 'NONE', #24, 12.69999999999999929 ) ;
#292 = DIRECTION ( 'NONE',  ( -1.000000000000000000, 0.000000000000000000, -0.000000000000000000 ) ) ;
#293 = FACE_OUTER_BOUND ( 'NONE', #114, .T. ) ;
#294 = DIRECTION ( 'NONE',  ( -1.000000000000000000, -0.000000000000000000, -0.000000000000000000 ) ) ;
#295 = PERSON_AND_ORGANIZATION ( #309, #41 ) ;
#296 = EDGE_LOOP ( 'NONE', ( #210, #29, #233, #193 ) ) ;
#297 = ADVANCED_FACE ( 'NONE', ( #280 ), #158, .F. ) ;
#298 = LOCAL_TIME ( 17, 15, 8.000000000000000000, #226 ) ;
#299 = SECURITY_CLASSIFICATION_LEVEL ( 'unclassified' ) ;
#300 = ADVANCED_FACE ( 'NONE', ( #35 ), #252, .F. ) ;
#301 = DIRECTION ( 'NONE',  ( 0.000000000000000000, 0.000000000000000000, 1.000000000000000000 ) ) ;
#302 = DIRECTION ( 'NONE',  ( -1.000000000000000000, -0.000000000000000000, -0.000000000000000000 ) ) ;
#303 = VECTOR ( 'NONE', #251, 1000.000000000000000 ) ;
#304 = CC_DESIGN_DATE_AND_TIME_ASSIGNMENT ( #99, #131, ( #116 ) ) ;
#305 = DIRECTION ( 'NONE',  ( 0.000000000000000000, 0.000000000000000000, 1.000000000000000000 ) ) ;
#306 = CIRCLE ( 'NONE', #160, 12.69999999999999929 ) ;
#307 = APPLICATION_CONTEXT ( 'configuration controlled 3d designs of mechanical parts and assemblies' ) ;
#308 = DIRECTION ( 'NONE',  ( -1.000000000000000000, -0.000000000000000000, -0.000000000000000000 ) ) ;
#309 = PERSON ( 'UNSPECIFIED', 'UNSPECIFIED', 'UNSPECIFIED', ('UNSPECIFIED'), ('UNSPECIFIED'), ('UNSPECIFIED') ) ;
#310 = CARTESIAN_POINT ( 'NONE',  ( -1.614212418857619014, 0.000000000000000000, 12.69999999999999929 ) ) ;
#311 = AXIS2_PLACEMENT_3D ( 'NONE', #75, #294, #173 ) ;
#312 = ORIENTED_EDGE ( 'NONE', *, *, #143, .T. ) ;
#313 = CARTESIAN_POINT ( 'NONE',  ( 1.500000000000000888, 7.776507174585692163E-16, -6.349999999999999645 ) ) ;
#314 = AXIS2_PLACEMENT_3D ( 'NONE', #71, #40, #213 ) ;
#315 = ORIENTED_EDGE ( 'NONE', *, *, #321, .T. ) ;
#316 = ORIENTED_EDGE ( 'NONE', *, *, #117, .F. ) ;
#317 = ORIENTED_EDGE ( 'NONE', *, *, #220, .F. ) ;
#318 = DIRECTION ( 'NONE',  ( 0.000000000000000000, 0.000000000000000000, 1.000000000000000000 ) ) ;
#319 = APPROVAL_PERSON_ORGANIZATION ( #330, #265, #51 ) ;
#320 = VERTEX_POINT ( 'NONE', #28 ) ;
#321 = EDGE_CURVE ( 'NONE', #118, #261, #87, .T. ) ;
#322 = DIRECTION ( 'NONE',  ( 0.000000000000000000, 0.000000000000000000, 1.000000000000000000 ) ) ;
#323 = DIRECTION ( 'NONE',  ( -1.000000000000000000, -0.000000000000000000, -0.000000000000000000 ) ) ;
#324 = CIRCLE ( 'NONE', #36, 6.349999999999999645 ) ;
#325 = CLOSED_SHELL ( 'NONE', ( #60, #300, #78, #297, #1, #205, #272, #105, #63, #236 ) ) ;
#326 = UNCERTAINTY_MEASURE_WITH_UNIT (LENGTH_MEASURE( 1.000000000000000082E-05 ), #30, 'distance_accuracy_value', 'NONE');
#327 = EDGE_LOOP ( 'NONE', ( #138, #312, #147, #157 ) ) ;
#328 = AXIS2_PLACEMENT_3D ( 'NONE', #126, #247, #22 ) ;
#329 = CARTESIAN_POINT ( 'NONE',  ( 1.500000000000000888, 0.000000000000000000, 6.349999999999999645 ) ) ;
#330 = PERSON_AND_ORGANIZATION ( #309, #41 ) ;
#331 = DIRECTION ( 'NONE',  ( -1.000000000000000000, -0.000000000000000000, -0.000000000000000000 ) ) ;
#332 = PERSON_AND_ORGANIZATION ( #309, #41 ) ;
#333 = PRODUCT_DEFINITION ( 'UNKNOWN', '', #53, #6 ) ;
#334 = CARTESIAN_POINT ( 'NONE',  ( -1.500000000000000444, 7.776507174585692163E-16, -6.349999999999999645 ) ) ;
#335 = FACE_OUTER_BOUND ( 'NONE', #12, .T. ) ;
ENDSEC;
END-ISO-10303-21;
